Tulip Squares and Sprockets

Mid may and Spring has just arrived in Calgary. I shot these tulips at Olympic Plaza using various films. I really love the Velvia and Agfachrome results.

We’re fizzing with excitement to introduce our latest Kickstarter project: the Lomo’Instant Square. We’re talking about the world’s first analogue camera to produce square-format Instax pictures. It features a 95mm glass lens for super sharp photos, an advanced automatic mode that takes care of exposure, all of Lomography’s signature creative features — and a compact, foldable design. The Lomo’Instant Square has launched on Kickstarter. Come join the fun and back us on Kickstarter now to save up to 35% on the planned retail price, and scoop all sorts of extra treats. Be sure to snatch up the deals before they run out. Be there and be square!

12 Comments

  1. crismiranda
    crismiranda ·

    awesome red

  2. meryl
    meryl ·

    nice album!!

  3. 134340
    134340 ·

    beautiful rocket album!!! Lovely tulip!! :)

  4. vici
    vici ·

    great job. you shot this subject at so many different angles; kept the album really interesting and lovely.

  5. dj3555
    dj3555 ·

    --------------------------------00000----------------------- -----------------------
    -----------------------------00-------00-------------------- -------------------------
    --------------------------000-----000----------------------- ------------------------
    ----------------0-------00---------------------------------- ------------------------
    --------------00-0----00------------------------------------ -------------------------
    -------------00--00--00-------00----------0000000-------0000 000-----00-----
    -----------00-----00-0--------00------00-------------—00---- -----00----00----
    ----------00-------0-0--------00-----00-----------------0000 000000----00-----
    ---------00-------00---------00-------00-----------------00- ------------00------
    -------00--------00---------00-----------00000000--------000 000000---------
    -----00--------00------------------------------------------- -------------------------
    ---00------------------------------------------------------- -------------------------
    000--------------------------------------------------------- --------------------------

  6. z790406
    z790406 ·

    good album!

  7. ohpleasedontgo
    ohpleasedontgo ·

    nice tulip album :)

  8. grazie
    grazie ·

    this is a sweet shot :D

  9. sara81
    sara81 ·

    Great album, i want to have some tulips too!

  10. lighthouseblues
    lighthouseblues ·

    I totally agree with @vici, the whole album is fantastic!

  11. ehmahh
    ehmahh ·

    love all these tulip ones!!

  12. elletra
    elletra ·

    beautiful